Alcohopolis Poesía Cuentos de la botella vacia Ocio Descargas Regresa al indice de Partituras
   

MANIC DEPRESSION

Intro:
E |------------------------------------|------------------------------------|
B |------------------------------------|------------------------------------|
G |------------------------------------|------------------------------------|
D |------------------------------------|------------------------------------|
A |-5-------------6-------------7------|------------------------------------|
E |------------------------------------|------------------------------------|


E |------------------------------------|------------------------------------|
B |------------------------------------|------------------------------------|
G |------------------------------------|------------------------------------|
D |-5-------------6-------------7------|---------------7-----5-----7-----5--|
A |------------------------------------|-0----------------------------------|
E |------------------------------------|------------------------------------|


E |------------------------------------|------------------------------------|
B |------------------------------------|------------------------------------|
G |------------------------------------|------------------------------------|
D |---------------7-----5-----7-----5--|---------------7-----5-----7-----5--|
A |-0----------------------------------|-0----------------------------------|
E |------------------------------------|------------------------------------|

                                       1st Verse
E |-----------------------------------||------------------------------------|
B |-----------------------------------||------------------------------------|
G |-----------------------------------||------------------------------------|
D |-----------------------------------||------------------------------------|
A |-0-------------7-----5-----7-----5-||---------------------------7--------|
E |-----------------------------------||-5---------7--/--9------------------|
                                                     sl.

                                         Man    -     ic           De     -
    ~~~~~~~~~~
E |------------------------------------|------------------------------------|
B |------------------------------------|------------------------------------|
G |------------------------------------|------------------------------------|
D |------------------------------------|------------------------------------|
A |---------------------------5--------|-5-------------6-------------7------|
E |-3---------5--/--7-------------7----|------------------------------------|
                sl.

    pres    -   sion_     is             touch   -    in'           my

E |------------------------------------|------------------------------------|
B |------------------------------------|------------------------------------|
G |------------------------------------|------------------------------------|
D |-5---------7-----5-----7-----5------|-----------7-----5-----7-----5------|
A |-0----------------------------------|-0----------------------------------|
E |------------------------------------|------------------------------------|
    soul.

E |------------------------------------|------------------------------------|
B |------------------------------------|------------------------------------|
G |------------------------------------|------------------------------------|
D |-----------7-----5-----7-----5------|-----------7-----5-----7-----5------|
A |-0----------------------------------|-0----------------------------------|
E |------------------------------------|------------------------------------|
                                                         I

E |------------------------------------|------------------------------------|
B |------------------------------------|------------------------------------|
G |------------------------------------|------------------------------------|
D |------------------------------------|------------------------------------|
A |-----------------------------7------|------------------------------------|
E |-5---------7--/--9------------------|-0---------5--/--7--------5----7----|
                sl.                                  sl.
    know         what       I            want_       but I,            I


E |------------------------------------|------------------------------------|
B |------------------------------------|------------------------------------|
G |------------------------------------|------------------------------------|
D |------------------------------------|-----------7-----5-----7-----5------|
A |-5-------------6-------------7------|-0----------------------------------|
E |------------------------------------|------------------------------------|
    just          don't                  know           how    to

E |------------------------------------|------------------------------------|
B |------------------------------------|------------------------------------|
G |------------------------------------|------------------------------------|
D |-----------7-----5-----7-----5------|-----------7-----5-----7-----5------|
A |-0----------------------------------|-0----------------------------------|
E |------------------------------------|------------------------------------|
    heh!                  go  a - bout       get-tin'   it.

E |------------------------------------|------------------------------------|
B |------------------------------------|------------------------------------|
G |------------------------------------|------------------------------------|
D |-----------7----(0)-----------------|------------------------------------|
A |-0----------------------------------|---------------------------2---(0)--|
E |--------------------------11\-------|-0---------2--/--4-----------P------|
                               sl.                   sl.
                                         Feel   -      in'      sweet

E |------------------------------------|------------------------------------|
B |------------------------------------|------------------------------------|
G |------------------------------------|------------------------------------|
D |------------------------------------|------------------------------------|
A |----------------------------5-------|-5----------------------3---5---3---|
E |-3----------5--/--7-------------7---|------------------------------------|
                 sl.
    feel   -  in'                        drops           from      my

E |------------------------------------|------------------------------------|
B |------------------------------------|------------------------------------|
G |------------------------------------|------------------------------------|
D |------------------------------------|------------------------------------|
A |-5----------------------2---3---2---|--3-----2-----3-----2---------------|
E |------------------------------------|--------------------------3-----2---|
    fin    -   gers,                      fin   -     gers._

E |------------------------------------|------------------------------------|
B |------------------------------------|------------------------------------|
G |------------------------------------|------------------------------------|
D |------------------------------------|------------------------------------|
A |------------------------------------|--------------------------7-\-------|
E |--3-----2-----3-----2-----3-----2---|-5---------7--/--9---------sl.------|
                                                     sl.
                                         Man    -      ic         De  -

E |------------------------------------|------------------------------------|
B |------------------------------------|------------------------------------|
G |------------------------------------|------------------------------------|
D |------------------------------------|------------------------------------|
A |--------------------------5---------|-5-------------6-------------7------|
E |-3---------5--/--7--------------7---|------------------------------------|
                sl.
    pres-sion          is  a             catch   -   in'            my

E |------------------------------------|------------------------------------|
B |------------------------------------|------------------------------------|
G |------------------------------------|------------------------------------|
D |------------------------------------|-5-------------6-------------7------|
A |------------------------------------|------------------------------------|
E |------------------------------------|------------------------------------|
    soul._

E |------------------------------------|------------------------------------|
B |------------------------------------|------------------------------------|
G |------------------------------------|------------------------------------|
D |------------7------5------7------5--|-5----------7------5------7------5--|
A |-0----------------------------------|-0----------------------------------|
E |-let ring---------------------------|------------------------------------|

    Yeah._

E |------------------------------------|-----------------------------------||
B |------------------------------------|-----------------------------------||
G |------------------------------------|-----------------------------------||
D |------------7------5------7------5--|-5----------7------(0)-------------||
A |-0----------------------------------|-0---------------------------------||
E |------------------------------------|---------------------------15\-----||
                                                                     sl.

  2nd Verse
E |------------------------------------|------------------------------------|
B |------------------------------------|------------------------------------|
G |------------------------------------|------------------------------------|
D |------------------------------------|------------------------------------|
A |---------------------------7\-------|---------------------------5--------|
E |-5---------7--/--9----------sl.-----|-3----------5--/--7-------------7---|
                sl.                                   sl.
    Wom    -     an          so          wear   -   y,                 the

                                                      full       full  full
E |------------------------------------|---------------/----------/-----/---|
B |------------------------------------|-------------5----------5-----5-----|
G |------------------------------------|-------------7----------7-----7-----|
D |------------------------------------|------------------------------------|
A |-5-------------6-------------7------|-0----------------------------------|
E |------------------------------------|------------------------------------|
    sweet         cause         in       vain._

                full                                  full       full
E |--------------/\--------------------|---------------/----------/\--------|
B |(5)--------5------------5-----------|-------------5----------5-----------|
G |(7)--------7----(7)-----7----(7)----|-------------7----------7----(7)----|
D |------------------------------------|------------------------------------|
A |-0----------------------------------|-0----------------------------------|
E |------------------------------------|------------------------------------|

                full        full
E |--------------/-----------/\--------|------------------------------------|
B |------------5-----------5-----------|------------------------------------|
G |------------7-----------7----(7)----|------------------------------------|
D |------------------------------------|------------------------------------|
A |-0----------------------------------|---------------------------7\-------|
E |------------------------------------|-5---------7--/--9----------sl.-----|
                                                     sl.
                           You           make        love,         you

E |------------------------------------|------------------------------------|
B |------------------------------------|------------------------------------|
G |------------------------------------|------------------------------------|
D |------------------------------------|----------------5-------------------|
A |--------------------------5---------|-5--------------6-------------7-----|
E |-3----------5--/--7------------7----|-5----------------------------------|
                 sl.
    break         love,     it's  a              all_                  the

                full    full   full                  full 1/2      full
E |--------------/-------/------/------|---------------/\-----------/-------|
B |------------5-------5------5--------|------------5-------------5---------|
G |------------7-------7------7--------|------------7-----(7)-----7---------|
D |------------------------------------|------------------------------------|
A |-0----------------------------------|-0----------------------------------|
E |------------------------------------|------------------------------------|
    same_                    when it's,                         when it's o-


                  full          full                    steady gliss
E |----------------/-------------/-----|------------------------------------|
B |--------------5-------------5-------|------------------------------------|
G |--------------7-------------7-------|------------------------------------|
D |------------------------------------|--------0---------------------------|
A |-0----------------------------------|-0----------------------------------|
E |------------------------------------|---------------14-/-16-\---(0)-\----|
                                                         sl.  sl.      sl.
    ver.

E |------------------------------------|------------------------------------|
B |------------------------------------|------------------------------------|
G |------------------------------------|------------------------------------|
D |------------------------------------|------------------------------------|
A |--------------------------2---------|-------------------------5----------|
E |-0---------2--/--4------------------|-3----------7-----------------7-----|
                sl.
    Mus     -      ic,    sweet          mus - ic.                    I

E |------------------------------------|------------------------------------|
B |------------------------------------|------------------------------------|
G |------------------------------------|------------------------------------|
D |------------------------------------|------------------------------------|
A |-5------------------3-----5-----3---|-5------------------2-----3-----2---|
E |------------------------------------|------------------------------------|
    wish           I     could    ca -   ress,_                  ca -  ress,

E |------------------------------------|------------------------------------|
B |------------------------------------|------------------------------------|
G |------------------------------------|------------------------------------|
D |------------------------------------|------------------------------------|
A |--3-----2-----3-----2---------------|------------------------------------|
E |---------------------------3-----2--|--3-----2-----3-----2-----3-----2---|
                       ca  -  ress._

E |------------------------------------|------------------------------------|
B |------------------------------------|------------------------------------|
G |------------------------------------|------------------------------------|
D |------------------------------------|------------------------------------|
A |----------------------------7-\-----|--------------------------5---------|
E |--5---------7--/--9----------sl.----|--3---------5--/--7-------------7---|
                 sl.                                  sl.
     Ma      -    nic          De  -      pres-sion      is    a

E |------------------------------------|------------------------------------|
B |------------------------------------|------------------------------------|
G |------------------------------------|-x-------------x--------------x-----|
D |------------------------------------|-x-------------x--------------x-----|
A |-5-------------6-------------7------|------------------------------------|
E |------------------------------------|------------------------------------|
    frus    -     trat    -     ing      mess.

E |------------------------------------|------------------------------------|
B |------------------------------------|-x-------------x--------------x-----|
G |------------------------------------|-x-------------x--------------x-----|
D |------------------------------------|-x-------------x--------------x-----|
A |-5-------------6-------------7------|------------------------------------|
E |------------------------------------|------------------------------------|
                                   Oo,   ow!_

E |------------------------------------|-----------------------------------||
B |------------------------------------|-----------------------------------||
G |------------------------------------|-----------------------------------||
D |------------------------------------|-5-------------6-------7-----(0)---||
A |-5-------------6-------------7------|--------------------------P--------||
E |------------------------------------|-----------------------------------||
    (Cough)


  Guitar Solo

     full---------------------------------------------------------\
       /~~~~~~~~~~~~~~~~~~~~~~~~~~~~~~~~~~~~~~~~~~~~~~~~~~~~~~~~~~~\
E |---/--------------------------------|----------------------------\-------|
B |-5----------------------------------|-5-------------/-------------7------|
G |-7----------------------------------|-7-------------/-------------9------|
D |------------------------------------|-------------sl.--------------------|
A |------------------------------------|------------------------------------|
E |------------------------------------|------------------------------------|
    Do,_                                                            do,

     full~~~~~~~~~~~~~~~~~~~~~~~~~~~~~~~~~~~~~~~~~~~~~~~~~~~~~~~~~~~~~~~~~
E |---/--------------------------------|------------------------------------|
B |-8----------------------------------|-(8)--------------------------------|
G |-10---------------------------------|-(10)-------------------------------|
D |------------------------------------|------------------------------------|
A |------------------------------------|------------------------------------|
E |------------------------------------|------------------------------------|
    do,_

      full~~~~~~~~~~~~~~~~~~~~~~~~~~~~~~~~~~~~~~~~~~~~~~~~~~~~~~~~~~~~~~~~
E |----/-------------------------------|------------------------------------|
B |-12---------------------------------|-(12)-------------------------------|
G |-14---------------------------------|-(14)-------------------------------|
D |------------------------------------|------------------------------------|
A |------------------------------------|------------------------------------|
E |------------------------------------|------------------------------------|
    do,_

      full~~~~~~~~~~~~~~~~~~~~~~~~~~~~~       full            full
E |----/-------------------------------|-----/------\--------/--------------|
B |-15---------------------------------|-15-/--------\------/---------------|
G |-17---------------------------------|-17---------------------------------|
D |------------------------------------|------------------------------------|
A |------------------------------------|------------------------------------|
E |------------------------------------|------------------------------------|
    do.                do.

          2 ~~~~~~~~~~~~~~~~~~~~~~~~~~~~~~~~~~~~~~~~~~~~~~~~~~~~~~~~~~~~~~~~~
         /                              fdbk.   full-------------------------
E |-----/------------------------------|-------/----------------------------|
B |----/-------------------------------|------/-----------------------------|
G |-17/--------------------------------|-(17)/------------------------------|
D |-grad.bend--------------------------|--17/-------------------------------|
A |------------------------------------|-don't pick-------------------------|
E |------------------------------------|------------------------------------|
                                 Fdbk.Pitch: G

  ~~~~~~~~~~~~~~~~                        2                1 1/2   steady
  -----------                  grad.bend /       1/2       /  1/2  gliss
E |----------\------------------------/|--------/---------/--/--------------|
B |-----------\---------------------/--|-------/---------/--/-----x----\----|
G |------------\---------------17-/----|-(17)-/---------17-/------x----\----|
D |-(17)--------\(17)------------------|-----/----------17/-------x----\----|
A |------------------------------------|--17/-------------------------sl.---|
E |------------------------------------|------------------------------------|

                              let ring
    sl.~~~~~~~~~~~~~~~~~      full                       full
E |---------------------------/--------|----------------/----------------5--|
B |--------------------------/---5--6--|-5-----------/----------------------|
G |-/-5---------------------7----------|-5-----8--/-------------------------|
D |------------------------------------|-------grad.bend--------------------|
A |------------------------------------|------------------------------------|
E |------------------------------------|------------------------------------|

                  full            P           P           H P            full
E |-5----P-------/---5-----P----8/-\5--|----8/-\5-----x--5/7\5------5----5/-|
B |----8/-\5----/-5------8/-\5---------|-5---------5------------8--------8--|
G |-----------7/-----------------------|------------------------------------|
D |------------------------------------|------------------------------------|
A |------------------------------------|------------------------------------|
E |------------------------------------|------------------------------------|

                   full   1/2           rake     full             sl.  ~~~~~~
E |-(5)-5----------/--P---|-\----------|----5----/--------8-10---10/12------|
B |-(8)----8--5---/-8/-\5-|--\--5---5--|-5-----8/----/10--8\10/8-------10---|
G |--------------7--------7-(7)---7----|-------------sl.---H--P-------------|
D |------------------------------------|------------------------------------|
A |------------------------------------|------------------------------------|
E |------------------------------------|------------------------------------|


                8va---------------------------------------------------------
                                 full--
                    grad.bend    /            steady gliss semi-
  ~~~~~~~~~        //1/2--------/                 sl.      harm.
E |-------------15//-----------(15)----|-(15)--15--\--7--\--5-----17---17---|
B |-(10)--------15/------------(15)----|------------------------------------|
G |------------------------------------|------------------------------------|
D |------------------------------------|------------------------------------|
A |------------------------------------|------------------------------------|
E |------------------------------------|------------------------------------|

8va-------------------------------------------------------------------------
                grad.bend
      full           full     1/2                     full
E |-17/----17-------/----17---/---17---|---P---17---/--P-------H--P------P--|
B |-20-----------20/---------20---17---|-20/\17--17/-20/\17--17/20\17--20-17|
G |------------------------------------|---------19--------19--------20-----|
D |------------------------------------|------------------------------------|
A |------------------------------------|------------------------------------|
E |------------------------------------|------------------------------------|



8va-------------------------------------------------------------------------
     full            full  full  full         full       full            full
E |---/---------------/-----/-----/----|-------/----------|\--------------/-|
B |--/-----------20--/-20--/-20--/-20--|-(20)-/-20----20--|--\-----------/--|
G |-19--------------19----19----19-----|-----19----19----19--(19)-17----19--|
D |------------------------------------|------------------------------------|
A |------------------------------------|------------------------------------|
E |------------------------------------|------------------------------------|


8va-------------------------------------------------------------------------
                                        full
                    full              /                            ~~~~~~~~~~
E |-------------17---/---17----20-/----|-(20)----------------------20-------|
B |--------17-------20-----------------|------------------------------------|
G |-(19)-------------------------------|------------------------------------|
D |------------------------------------|------------------------------------|
A |------------------------------------|------------------------------------|
E |------------------------------------|------------------------------------|


8va-------------------------------------------------------------------------
                / full                     full       full         full
E |-----------/----------17------(17)--|---/-----------/------------/-------|
B |-x-x--20--(20)------------20---17---|--/----20-----/----20------/----20--|
G |-x-x--------------------------------|-19----------19-----------19--------|
D |------------------------------------|------------------------------------|
A |------------------------------------|------------------------------------|
E |------------------------------------|------------------------------------|


8va-------------------------------------------------------------------------
                                                                /1 1/2
       full----------------------------------------------------/
       /  ~~~~~~~~~~~~~~~~~~~~~~~~~~~~~~~~~~~~~~~~~~~~~~~~             fdbk.
E |---/--------------------------------|------------------------------------|
B |--/---------------------------------|------------------------------------|
G |-19---------------------------------|-(19)---------------------(19)------|
D |------------------------------------|----------------------------x-------|
A |------------------------------------|------------------------------------|
E |------------------------------------|------------------------------------|


8va-------------------------------------------------------------------------
                                                                 /1 1/2
           full-------------------------------------------------/
         /    ~~~~~~~~~~~~~~~~~~~~~~~~~~~~~~~~~~~~~~~~~~~~
E |----/-------------------------------|------------------------------------|
B |--/---------------------------------|------------------------------------|
G |-19-------(19)----------------------|-(19)----------------------(19)-----|
D |------------------------------------|-----------------------------x------|
A |------------------------------------|------------------------------------|
E |------------------------------------|------------------------------------|


8va-------------------------------------------------------------------------
           grad. bend
               full                                                full
E |-----------/------------------------|----------------------------/-------|
B |--------/---------------------------|-20------------------------/--------|
G |-(19)/------------------------------|--------------------------19---19---|
D |------------------------------------|------------------------------------|
A |------------------------------------|------------------------------------|
E |------------------------------------|------------------------------------|


8va-------------------------------------------------------------------------
        ~~~~~~~~~~~~~~~~~~~~~~~~~~~~~~~~~~~~~~~~~~~~~~~~~~~~~~~~~~~~~~~~~~
E |------------------------------------|-fdbk.-----------------------------||
B |------------------------------------|-----------------------------------||
G |-17---------------------------------|-(17)------------------------------||
D |------------------------------------|-----------------------------------||
A |------------------------------------|-----------------------------------||
E |------------------------------------|-----------------------------------||
                                   fdbk. pitch: C
                                                             Well, I_

  3rd verse
E |------------------------------------|------------------------------------|
B |------------------------------------|------------------------------------|
G |------------------------------------|------------------------------------|
D |------------------------------------|------------------------------------|
A |----------------------------7\------|-------------------------5----------|
E |-5-----------7-/-9------------\-----|-3---------5-/-7--------------7-----|
                 sl.            sl.                 sl.
    think        I'll          go        turn    my-self     off  and    uh,


E |------------------------------------|------------------full------full----|
B |------------------------------------|---------------5-/-------5-/--------|
G |------------------------------------|---------------7/--------7/---------|
D |------------------------------------|------------------------------------|
A |-5----------------6---------7-------|-0----------------------------------|
E |------------------------------------|------------------------------------|
        uh,     huh!          go  on_             down._


                     full~~~   full~~~                  full        full
E |-------------------/---------/------|---------------5-/---5-----5-/------|
B |----------------5-/-------5-/-------|---------------8/----------8/----5--|
G |----------------7/--------7/--------|------------------------------------|
D |------(0)---------------------------|------------------------------------|
A |-0----------------------------------|-0----------------------------------|
E |------------------------------------|------------------------------------|
         Huh!                            All          the way     down.

       full
E |-----/------------------------------|------------------------------------|
B |---5/---5----5-----------5----------|------------------------------------|
G |---7---------7-----------7----------|------------------------------------|
D |------------------------------------|------------------------------------|
A |------------------------------------|---------------------------7--------|
E |------------------------------------|-5----------7-/-9-------------------|
                                                     sl.
                                    Real-  ly        ain't         no

E |------------------------------------|------------------------------------|
B |------------------------------------|------------------------------------|
G |------------------------------------|------------------------------------|
D |------------------------------------|------------------------------------|
A |----------------------------5-------|--5------------6-----------7--------|
E |--3--------5-/-7----------------7---|------------------------------------|
               sl.
     use_        in        me_           hang    -    ing          a   -

                        full      full~~~~~~~~~~~~~     full      full
E |----------------------/---------/---|-----------------/---------/\-------|
B |--------------------5/---5----5/----|-(5)-----------5/--------5/--\------|
G |--------------------7---------7-----|-(7)-----------7---------7----(7)---|
D |------------------------------------|------------------------------------|
A |-0----------------------------------|------------------------------------|
E |------------------------------------|------------------------------------|
    round_                in,  uh, huh!                           Your

                    full      full                     full
E |------------------/---------/-------|----------------/-------------------|
B |----------------5/---5----5/---5----|--------------5/-\------------------|
G |----------------7---------7---------|--------------7--\------------------|
D |------------------------------------|--------0---------------------------|
A |-0----------------------------------|-0----------------------------------|
E |------------------------------------|--------------------------/-14-\----|
                                                                 sl.
    kind  -  o'   scene._

                                        ~~~~~~~~
E |------------------------------------|------------------------------------|
B |------------------------------------|------------------------------------|
G |------------------------------------|------------------------------------|
D |------------------------------------|------------------------------------|
A |----------------------------2-------|------------2-------------5----2----|
E |--0-------2-/-4---------------------|-3----------------------------------|
              sl.
     Mu  -  sic,             sweet       mu - sic,                     I


E |------------------------------------|------------------------------------|
B |------------------------------------|------------------------------------|
G |------------------------------------|------------------------------------|
D |------------------------------------|------------------------------------|
A |-5------------------3---5------3----|-5------------------2------3---2----|
E |------------------------------------|------------------------------------|
    wish       I        could    ca -    ress_                    and-a


E |------------------------------------|------------------------------------|
B |------------------------------------|------------------------------------|
G |------------------------------------|------------------------------------|
D |------------------------------------|------------------------------------|
A |-3------2-----3------2-----3--------|------------------------------------|
E |---------------------------------2--|-3-----2------3------2-----3-----0--|
    kiss,                                kiss_


E |------------------------------------|------------------------------------|
B |------------------------------------|------------------------------------|
G |------------------------------------|------------------------------------|
D |------------------------------------|------------------------------------|
A |---------------------------7\-------|--------------------------5---------|
E |-5---------7-/-9-------------\------|-3---------5-/-7---------------(7)--|
               sl.             sl.                  sl.
    Man     -    ic     De       -       pres   -   sion          is  a

E |------------------------------------|------------------------------------|
B |------------------------------------|------------------------------------|
G |------------------------------------|------------------------------------|
D |------------------------------------|------------------------------------|
A |-5-----------6------------7---------|------------------------------------|
E |------------------------------------|------------------------------------|
    frus   -   trat    -    ing          mess!

E |------------------------------------|------------------------------------|
B |------------------------------------|------------------------------------|
G |------------(4)----------(6)--------|------------------------------------|
D |-5-----------6------------7---------|------------------------------------|
A |------------------------------------|------------------------------------|
E |------------------------------------|------------------------------------|
                                    Oo,   ah!_

E |------------------------------------|------------------------------------|
B |------------------------------------|------------------------------------|
G |------------------------------------|------------------------------------|
D |------------------------------------|------------------------------------|
A |-5-----------6------------7---------|------------------------------------|
E |------------------------------------|------------------------------------|
                                         Dig,

E |------------------------------------|------------------------------------|
B |------------------------------------|------------------------------------|
G |--------------------------6---------|------------------------------------|
D |-5-----------6------------7---------|------------------------------------|
A |------------------------------------|------------------------------------|
E |------------------------------------|------------------------------------|
                                         ow!



E |------------------------------------|------------------------------------|
B |------------------------------------|------------------------------------|
G |------------------------------------|--------------6-------------7-------|
D |------------------------------------|-5------------6-------------7-------|
A |-5------------6-------------7-------|------------------------------------|
E |------------------------------------|------------------------------------|


E |------------------------------------|------------------------------------|
B |------------------------------------|------------------------------------|
G |------------------------------------|------------------------------------|
D |------------------------------------|-5---------6-------6--------7-------|
A |-5------------6-------------7-------|------------------------------------|
E |------------------------------------|------------------------------------|

                                            full--------------------
E |------------------------------------|---/-------------------------\------|
B |------------------------------------|-5/---------------------------\-----|
G |------------------------------------|-7----------------------------(7)---|
D |-5------------5---------------------|------------------------------------|
A |-5------------6-------------7-------|------------------------------------|
E |------------------------------------|------------------------------------|

                                           /full     ~~~~~~~~~~~~~~~~~~~~~~~
E |------------------------------------|-5/-----------(5)-------------------|
B |------------------------------------|-8------------(8)-------------------|
G |-4------------6---------------------|------------------------------------|
D |-5------------6-------------7-------|------------------------------------|
A |------------------------------------|------------------------------------|
E |------------------------------------|------------------------------------|

                                            full~~~~~~~~~~~~~~~~~~~~~~~~~~~~
E |------------------------------------|----/-------------------------------|
B |------------------------------------|-5-/--------------------------------|
G |-5------------5---------------------|-7/---------------------------------|
D |-5------------6-------------7-------|------------------------------------|
A |------------------------------------|------------------------------------|
E |------------------------------------|------------------------------------|

                                               ~~~~~~~~~~~~~~~~~~~~~~~~~
                                           full-----------------------
E |------------------------------------|-5-/--------------------------\-----|
B |------------------------------------|-8/----------------------------(8)--|
G |------------------------------------|------------------------------------|
D |-5------------6------------7\/(0)---|------------------------------------|
A |----------------------------P-------|------------------------------------|
E |------------------------------------|------------------------------------|


E |------------------------------------|------------------------------------|
B |------------------------------------|------------------------------------|
G |------------------------------------|------------------------------------|
D |----------------------------5-------|-5-------------6-------------7------|
A |-5------------6---------------------|------------------------------------|
E |------------------------------------|------------------------------------|
    Mu    -    sic,          sweet       mu    -     sic,          sweet

E |------------------------------------|------------------------------------|
B |------------------------------------|------------------------------------|
G |------------------------------------|------------------------------------|
D |------------------------------------|-5-------------6-----------7----7---|
A |-5------------6-------------7-------|------------------------------------|
E |------------------------------------|------------------------------------|
    Mu   -    sic,           sweet       mu    -     sic,         ah!

          ~~~~~~~~~~~~~~~~~~~~~~
      full--------------------
E |----/----------------------\--------|------------------------------------|
B |-5-/------------------------\-------|------------------------------------|
G |-7/------------------------(7)------|-4----------------------------------|
D |------------------------------------|-5-------------6-----------7-\-9----|
A |------------------------------------|----------------------------sl.-----|
E |------------------------------------|------------------------------------|


      full---------------------
E |----/-----------------------\-------|------------------------------------|
B |-5-/-------------------------\------|------------------------------------|
G |-7/-------------------------(7)-----|------------------------------------|
D |------------------------------------|-(5)----------(5)-------------(0)---|
A |------------------------------------|--5------------6-----------7-\------|
E |------------------------------------|----------------------------sl.-----|
                                                                     P
      full---------------------
E |----/-----------------------\-------|------------------------------------|
B |-5-/-------------------------\------|-----------------------------P------|
G |-7/-------------------------(7)-----|-4-------------5-----------6/\(0)---|
D |------------------------------------|-5-------------6-----------7--------|
A |------------------------------------|------------------------------------|
E |------------------------------------|------------------------------------|


    grad. bend             full
E |-5-/--------------------------------|------------------------------------|
B |-8/---------------------------------|------------------------------------|
G |------------------------------------|------------------------------------|
D |------------------------------------|--------------5------------6--------|
A |------------------------------------|-5------------6------------7--------|
E |------------------------------------|------------------------------------|


E |------------------------------------|------------------------------------|
B |------------------------------------|------------------------------------|
G |-4-------------------------6--------|------------------------------------|
D |-5------------6------------7--------|---------------------------6--------|
A |------------------------------------|-5------------6------------7--------|
E |------------------------------------|------------------------------------|
    Mu    -    sic,        sweet         Mu    -    sic,        sweet

E |------------------------------------|------------------------------------|
B |------------------------------------|------------------------------------|
G |-(4)----------------------(0)-------|------------------------------------|
D |--5-----------6------------7--------|------------------------------------|
A |------------------------------------|-5------------6------------7--------|
E |------------------------------------|------------------------------------|
    Mu    -    sic,                                        Yeah!_

                                               ~~~~~~~~~~~~~~~~~~~~~~~~~~~~~~
                                           full------------------------------
E |------------------------------------|----/-------------------------------|
B |------------------------------------|-5-/--------------------------------|
G |-4------------4------------6--------|-7/---------------------------------|
D |-5------------6------------7--------|------------------------------------|
A |------------------------------------|------------------------------------|
E |------------------------------------|------------------------------------|

                                          hold bend
  ~~~~~~~~~~~~~~~~~~~~~~~~~~~~~~~~~~~~          ~~~~~~~~~~~~~~~~~~~~~~~~~~~~~
  ------------------------------------+     full-----------------------------
E |------------------------------------|-----/------------------------------|
B |-5------------5------------5--------|--8-/---8-----8-----8-----8-----8---|
G |-7------------7------------7--------|-10/---------10----------10----10---|
D |------------------------------------|------------------------------------|
A |------------------------------------|------------------------------------|
E |------------------------------------|------------------------------------|

                                          hold bend
  ~~~~~~~~~~~~~~~~~~~~~~~~~~~~~~~~~~~~          ~~~~~~~~~~~~~~~~~~~~~~~~~~~~~
  ------------------------------------+     full-----------------------------
E |------------------------------------|-----/------------------------------|
B |--8-----8-----8-----8-----8-----8---|-12-/--12----12----12----12----12---|
G |-10----------10----------10----10---|-14/---------14----14----14----14---|
D |------------------------------------|------------------------------------|
A |------------------------------------|------------------------------------|
E |------------------------------------|------------------------------------|

                                          hold bend
  ~~~~~~~~~~~~~~~~~~~~~~~~~~~~~~~~~~~~          ~~~~~~~~~~~~~~~~~~~~~~~~~~~~~
  ------------------------------------+     full-----------------------------
E |------------------------------------|-----/------------------------------|
B |-12----12----12----12----12----12---|-15-/--15----15----15----15----15---|
G |-14----14----14----14----14----14---|-17/---------17----17----17----17---|
D |------------------------------------|------------------------------------|
A |------------------------------------|------------------------------------|
E |------------------------------------|------------------------------------|

  ~~~~~~~~~~~~~~~~~~                      rake
  ------------------+                     ~~~~~~~~~~~~~~~~~~~~~~~~~~~~~~~~~
E |------------------------------------|------------------------------------|
B |-15------------15-\-----------------|------------------------------------|
G |-17------------17--\----------------|--5---------------------------------|
D |-----------------sl.---------x------|-x----------------------------------|
A |------------------------------------|------------------------------------|
E |------------------------------------|------------------------------------|

     ~~~~~~~~~~~~~~~~    ~~~~~~~~        ~~~~~~~~~~~~~~~~~~~~~~~~~~~~~~~~~~
E |------------------------------------|------------------------------------|
B |------------------------------------|------------------------------------|
G |------------------------------------|------------------------------------|
D |--7-------------------7-------------|-5----------------------------------|
A |------------------------------------|------------------------------------|
E |------------------------------------|------------------------------------|

                                         free time
         1/2                              let ring
E |------/-----------------------------|------------------------------------|
B |-----/------------------------------|------------------------------------|
G |----/-------------------------------|-------------

Arriba