PARTITURAS LED ZEPPELIN
   

MOBY DICK

|-----------|---------|-----------|---------|
|-----------|---------|-----------|---------|
|-----------|---------|-----------|---------|
|-----------|---------|-----------|---------|
|---7-7-5-7-|---------|---7-7-5-7-|---------|
|-0---------|-3-5-3-5-|-0---------|-3-5-3-5-|
|-----------|---------|-----------|---------|
|-----------|---------|-----------|---------|
|-----------|---------|-----------|---------|
|---7-7-5-7-|---------|---7-7-5-7-|---------|
|-0---------|-3-5-3-5-|-0---------|-3-5-3-5-|
|-----------|---------|-----------|---------|
|-------------------|-----------|-------|---------|------|
|-------------------|-----------|-------|---------|------|
|-------------------|-----------|-------|---------|------|
|---7-7-0-5-5-0-3-5-|-0-3-5-7-5-|-0--3--|-5-7-5-3-|-0----|
|-0-----------------|-----------|-------|---------|------|
|-------------------|-----------|-------|---------|------|

enter John Bonham's major DRUM SOLO...

Riff 1

E------------------------
B------------------------
G------------------------
D------------------------
A--5-5-3-0---------------
D-0-----------3-5-3-5-3--

Riff 2

E-----------------------------------------------
B-----------------------------------------------
G-----------------------------------------------
D----5-5-3-0----------------5-5-3-0-------------
A--------------1-3-1-3-1--------------1-3-1-3-1-
D--5----------------------5---------------------

Riff 3

E--------------------------------------------------
B--------------------------------------------------
G-------------------------------------7-5----------
D----7-7-5---7---7---5--7--55555----------7-5------
A--0-------7-------7-------------8-5----------8-5--
D--------------------------------------------------
Riff1 4x  Riff2 2x  Riff1 2x  Riff3 1x  Riff1 3x  minisolo

Riff1 1x  minisolo  Riff2 1x  minisolo  Riff1 1x  minisolo  Riff3 1x  minisolo

Solo de Bateria

Riff1 1x  drumfill  Riff2     drumfill  Riff3

End:       D5                 C5                A5 E-------------------------------------------------- B-------------------------------------------------- G-----5------------------3-----------------2------- D-----5------------------3-----------------2------- A-----7------------------5-----------------0------- D--------------------------------------------------

|-----------|---------|-----------|---------|
|-----------|---------|-----------|---------|
|-----------|---------|-----------|---------|
|-----------|---------|-----------|---------|
|---7-7-5-7-|---------|---7-7-5-7-|---------|
|-0---------|-3-5-3-5-|-0---------|-3-5-3-5-|
|-----------|---------|-----------|---------|
|-----------|---------|-----------|---------|
|-----------|---------|-----------|---------|
|---7-7-5-7-|---------|---7-7-5-7-|---------|
|-0---------|-3-5-3-5-|-0---------|-3-5-3-5-|
|-----------|---------|-----------|---------|
|-------------------|-----------|-------|---------|------|
|-------------------|-----------|-------|---------|------|
|-------------------|-----------|-------|---------|------|
|---7-7-0-5-5-0-3-5-|-0-3-5-7-5-|-0--3--|-5-7-5-3-|-0----|
|-0-----------------|-----------|-------|---------|------|
|-------------------|-----------|-------|---------|------|

enter John Bonham's major DRUM SOLO

Riff 1

E------------------------
B------------------------
G------------------------
D------------------------
A--5-5-3-0---------------
>D-0-----------3-5-3-5-3--

Riff 2

E-----------------------------------------------
B-----------------------------------------------
G-----------------------------------------------
D----5-5-3-0----------------5-5-3-0-------------
A--------------1-3-1-3-1--------------1-3-1-3-1-
D--5----------------------5---------------------

Riff 3

E--------------------------------------------------
B--------------------------------------------------
G-------------------------------------7-5----------
D----7-7-5---7---7---5--7--55555----------7-5------
A--0-------7-------7-------------8-5----------8-5--
D--------------------------------------------------
Riff1 4x  Riff2 2x  Riff1 2x  Riff3 1x  Riff1 3x  minisolo
Riff1 1x  minisolo  Riff2 1x  minisolo  Riff1 1x  minisolo  Riff3 1x  minisolo
!!!!!!!!!

Drum SOLO


!!!!!!!!!
Riff1 1x  drumfill  Riff2     drumfill  Riff3
End:
      D5                 C5               A5
E--------------------------------------------------
B--------------------------------------------------
G-----5------------------3-----------------2-------
D-----5------------------3-----------------2-------
A-----7------------------5-----------------0-------
D--------------------------------------------------

[Riff 1]

e:-------------------------------|
B:-------------------------------|
G:o-----------------------------o|
D:o-----------------------------o|
A:----5--5--3--------------------|
E:-0-----------5--3--5--3--5--3--|

[Riff 2]

e:-------------------------------|
B:-------------------------------|
G:o-----------------------------o|
D:o--5--5--3--0-----------------o|
A:---------------1--3--1--3--1---|
E:-5-----------------------------|

[Riff 3]

e:--------------------------------------------------------------|
B:--------------------------------------------------------------|
G:-------------------------------------------7--5---------------|
D:---7--7--5-----7--7---5--7--5-5-5-5-5-----------7--5----------|
A:------------7-------7-----------------8--5-----------8--------|
E:-7------------------------------------------------------------|

Okay, now for the song, play [Riff 1] four times, then [Riff 2] two times, then back to [Riff 1] two times, then break into [Riff 3] once, then repeat the entire cycle. This sequence repeats a few times, then after the end of [Riff 3] play this:

e:--------------|
B:--------------|
G:--------------|
D:--------------|
A:----5---------|
E:----0---------|

So when the song is ending, instead of looping back to [Riff 1] after [Riff 3], you play this as the last note. There is a long pause in the middle where Bonham goes off, which is good for drummers but not for us.

Arriba