CUTE NORMAL EXTREME Regresa al indice de Partituras
   


BELIEVE

Chords Used

                e  a  d  g  b  e
A               x  x  x  2  2  0
F               x  x  3  2  0  x
E               x  x  2  1  1  0
Bmadd4          x  x  4  4  3  0
Am              0  0  2  2  1  0
G               3  2  0  0  3  3
D               0  0  0  2  3  2
Em2             x  x  x  0  0  0
A#              x  1  3  3  3  x
F/A             x  0  3  2  1  0
Gm              3  5  5  3  3  3
F2              1  3  3  1  1  1
C/E             x  x  2  0  1  3
Cm/D#           x  x  1  0  1  3
C               0  4  3  2  1  0
Em              0  2  2  0  0  0
Dm              0  0  0  2  3  1
Main Riff

   A                      F
e--0---0---0---0---0-0-0-|---------------------|---
a--2---3---2---0---2-0-0-|--0----1---0h1p0-----|---
g--2---2---2---2---2-0-0-|--2---------------2--|---
d--------------------0-0-|--3------------------|---

Verse 1

A         F 
I am you,  and you are me
A              F
Why's that such a mystery?
E       Bmadd4 Am                G   D  Em
If you want it you've got to believe
A           F
Who are we?  We're who we are,
A        F
Riding on this great big star
E            Bmadd4        Am            G    D
We've got to stand up if we're gona be free - Yeah

Coro:

A#         F/A             Gm
   If you want it, you got it
          F            C/E   Cm/D#
You just got to believe,
    C          F
Believe in yourself
A#              F/A          Gm
   'Cause it's all just a game
           F              C/E  Cm/D#
We just want to be loved

Fill 1

d------------------------------------ a-----------2---3---2---------------- e--0----4----------------4------0----

Verse 2

The son of God is in our face
Offering us eternal grace
If you want it, you got to believe
'Cause being free is a state of mind
We'll one day leave this all behind
Just put your faith in god, and one day you'll see, yeah!
 

Coro:


Fill 1

Coro:


Fill 1
Outro :   (well some of it)

Chords

Am   F   G   Em  F  Dm  G
  Am          F       G         Em         F         Dm         G

e----------------------|----------------------|-----------------|---
b-----------------3----|------------3----5----|------------3----|---
g--2-------2-4-5-----4-|-----2-4-5----------2-|--------------4--|---
d----------------------|----------------------|-----2-4-5-------|---
a----------------------|----------------------|---2-------------|---
e----------------------|----------------------|-----------------|---

                                   Am              F          G

e---------------------------------|------------------------------|--
b---------------------------------|------------------------------|--
g---2h4p2p0-----------14p12----12-|--14------14-16-17---17Br--16-|--
d----------------/14--------14----|-------14---------------------|--
a---------------------------------|------------------------------|--
e---------------------------------|------------------------------|--

                    Em       F                 Dm        G

e-------------------------------|------------------------|----------
b-------------------15--15Br----|----------------15------|----------
g--------14-16-17------------14-|-------14-16-17-----16--|----------
d-------------------------------|---14-------------------|----------
a-------------------------------|------------------------|----------
e-------------------------------|------------------------|----------

e----------------------
b----------------------
g--------14--12-14-12--
d----------------------
a----------------------
e----------------------

B = Full bend
r = Release
h = Hammer on
P = Pull off

Arriba