Alcohopolis Poesía Cuentos de la botella vacia Ocio Descargas Regresa al indice de Partituras
   

BRING ON THE NIGHT

Intro/Verse

E----------0-------0-----------0-----0----------0------0---------------
B-------10------10------10---8-----8-----8----7-----7------7-----------
G----------------------------------------------------------------------
D----10------10------10----9-----9-----9----7-----7------7-------------
A----------------------------------------------------------------------
E----------------------------------------------------------------------

E---------0-------0------------0-----0-----------0-------0-------0-----
B------10------10------10----5-----5-----5----12------12------12-------
G----------------------------------------------------------------------
D---10------10------10-----5-----5-----5---12------12------12----------
A----------------------------------------------------------------------
E----------------------------------------------------------------------

E---------0-------0-----------0-----0----------------------------------
B------10------10------10---8-----8-----8------------------------------
G----------------------------------------------------------------------
D---10------10------10-----9----9-----9--------------------------------
A----------------------------------------------------------------------
E----------------------------------------------------------------------


I havn't written any 'slide' symbols, but obviously you're moving pretty much the same shape up and down, so you get some of the notes sliding up and down - like when you change from the 5th fret to the 12th.

This pattern repeats for the verses, then goes into:

Coro


(Hit the chords on the offbeat :  1  AND  2 AND  3  AND  4  AND   etc) E-----7---7---7---7-------9---9---9---9---------12--12--12--12--------- B-----8---8---8---8-------10--10--10--10--------13--13--13--13--------- G-----7---7---7---7-------9---9---9---9---------12--12--12--12--------- D---------------------------------------------------------------------- A---------------------------------------------------------------------- E----------------------------------------------------------------------           Bring on the night                         I couldn't stand E-------7---7-----9---9---------------- B-------8---8-----10--10--------------- G-------7---7-----9---9---------------- D-------------------------------------- A-------------------------------------- E--------------------------------------

another hour of daylight

Repeat sequence once.

Arriba